ukulele
     [Am7]C:\inetpub\wwwroot\Chordstrum\chord\ukulele\Am7.png            [Dm7]C:\inetpub\wwwroot\Chordstrum\chord\ukulele\Dm7.png                  
I've been  
[Am7] holding out so long 

I've been  
[Am7] sleeping all alone 

Lord I  
[Dm7] miss you 

I've been  
[Am7] hanging on the phone 

I've been  
[Am7] sleeping all alone 

I want to  
[Dm7] kiss you, sometimes 

Chorus 

Oooh oooh  
[Am7] oooh oooh oooh oooh oooh 

Oooh oooh  
[Am7] oooh oooh oooh oooh oooh 

Oooh oooh  
[Dm7] oooh oooh 

Oooh oooh  
[Am7] oooh oooh oooh oooh oooh 

Oooh oooh  
[Am7] oooh oooh oooh oooh oooh 

Oooh oooh  
[Dm7] oooh oooh 

Well, I've been haunted in my sleep 

You've been starring in my dreams 

Lord I miss you 

I've been waiting in the hall 

Been waiting on your call 

When the phone rings 

It's just some friends of mine that say, 

"Hey,  
[Am7] what's the matter man? 

We're gonna come around at twelve 

With some Puerto Rican girls that are just 

[Dm7] dyin' to meet you. 

We're  
[Am7] gonna bring a case of wine 

[Am7] Hey, let's go mess and fool around 

You know, like we  
[Dm7] used to" 

Chorus with Aaah rather than Oooh 

[F] Oh  
[Em] everybody waits so  
[Dm] long 

[F] Oh  
[Em] baby why you wait so  
[Dm] long 

Won't you  
[E] come on!  
[E] Come on! 

[Am7] Aaaaahh  
[Dm7] 

G ----7-5-7----| 

D -7--------7--| 

Spoken 

I've been walking in Central Park 

Singing after dark. People think I'm crazy 

I've been stumbling on my feet 

Shuffling through the street 

Asking people, "What's the matter with you boy?" 

Sometimes I want to say to myself. Sometimes I say 

Oooh Chorus 

Instrumental  
[Am7]  
[Am7]  
[Dm7]  
[Am7]  
[Am7]  
[Dm7]  

I guess I'm lying to myself 

It's just you and no one else 

Lord I won't miss you child 

You've been blotting out my mind 

Fooling on my time 

No, I won't miss you, baby, yeah 

Lord, I miss you child 

Half Aaah Chorus then "Lord, I miss you child" 

Half Aaah Chorus then "Lord, I miss you child" 

Full Aaah Chorus 

[Am7]  
[Am7]  
[Dm7] to fade 

------------------------------------------ 

Intro 

 

B ---------------|---------------|-----5---|-6/8-8-\7-\6--| 

G -----7-5-------|-----7-5-------|-----5---|-7/9-9-\8-\7--| 

D -5-7-----7-5-7-|-5-7-----7-5-7-|-5-7---7-|--------------| 

B ---------------|---------------|-6/8-\7-\6-|--8-7-6-| 

G -----7-5-------|-----7-5-------|-7/9-\8-\7-|-9-8-7--| 

D -5-7-----7-5-7-|-5-7-----7-5-7-|-----------|--------| 

E ---------------|----------------|---------|-----5-8-8-8-| 

B ---------------|----------------|-----5---|-6/8-6-6-6-6-| 

G -----7-5-------|-----7-5--------|-----5---|-7/9---------| 

D -5-7-----7-5-7-|-5-7------7-5-7-|-5-7---7-|-------------| 

Chords 

Dm Am7 F Dm7/A Em Dm7 E 

E ---5----5----8----8-----7----5---7--| 

B ---6----5---10----5-----8----6---9--| 

G ---7----5---10----7-----9----5---9--| 

D ---7----5---10----7-----9----7---9--| 

A ---5----7----8----5-----7----5---7--| 

E ---5----5----8----5-----7----5---7--| 

Play Dm7/A at times instead of Dm7